Check the new version here

Popular channels

smells like teen spirit + tablatura

BUENOS,DIAS.TARDES,NOCHES, LES TRAIGO UNA CANCION QUE REVOLUCIONO NIRVANA DESDE EL DISCO NEVERMIND. BUENO EMPEZEMOS


link: http://www.youtube.com/watch?v=hTWKbfoikeg

BUENO Y PASEMOS A LA TABLATURA
(INTRO)
---------------------------------------------------
---------------------------------------------------
---------------------3-3-----------------------------6-6
--3--3-3-----------3-3----------6--6-6----------6-6 6X
--3--3-3-----------1-1----------6--6-6----------4-4
--1--1-1--------------------------4--4-4-------------
_____________________________________________________________________________
(VERSO) ---------------------------------------------------
----------6-----------------------------6----------
-------5-----------------------------5------------- 3x
---------------------------------------------------
---------------------------------------------------
---------------------------------------------------
____________________________________________________________________________
(PRE CORITO) ---------------------------------------------------
--------6-----------6-----------6-------------6----
-----5-----------5-----------5-------------5------- 4x
---------------------------------------------------
---------------------------------------------------
---------------------------------------------------
_____________________________________________________________________________
(CORITO) ---------------------------------------------------
---------------------------------------------------
----------------3--3---------------------6--6-----------
--3--3-3------3--3-----6--6-6-------6--6----------- 3x
--3--3-3------1--1-----6--6-6-------4--4-----------
--1--1-1-----------------4--4-4----------------------
_____________________________________________________________________________
(3 RIFF) ---------------------------------------------------
---------------------------------------------------
----------------------(3)--------------------------
--3----2----3----4-4--------3----2----3----8-8-6-5- 2x
--3----2----3----4-4--------3----2----3----8-8-6-5-
--1----0----1----2-2--------1----0----1----6-6-4-3-
_____________________________________________________________________________
(VERSOS)
---------------------------------------------------
----------6-----------------------------6----------
-------5-----------------------------5-------------
---------------------------------------------------
---------------------------------------------------
---------------------------------------------------
_____________________________________________________________________________
(PRE CORITO) ---------------------------------------------------
--------6-----------6-----------6-------------6----
-----5-----------5-----------5-------------5-------
--------------------------------------------------- 4x
---------------------------------------------------
---------------------------------------------------
_____________________________________________________________________________
(CORITO)---------------------------------------------------
---------------------------------------------------
--------------3--3---------------------6--6-----------
--3--3-3------3--3-----6--6-6-------6--6----------- 3x
--3--3-3------1--1-----6--6-6-------4--4-----------
--1--1-1-----------------4--4-4----------------------
_____________________________________________________________________________
(3 RIFF) ---------------------------------------------------
---------------------------------------------------
----------------------(3)--------------------------
--3----2----3----4-4--------3----2----3----8-8-6-5- 2x
--3----2----3----4-4--------3----2----3----8-8-6-5-
--1----0----1----2-2--------1----0----1----6-6-4-3-
_____________________________________________________________________________
(SOLO) ---------------------------------------------------
---------------------------------------------------
------8---10-------8-(8)--6-5--6-5-----------------
-10------------6--------------------8--6--8-(8)-6-5 2x
---------------------------------------------------
---------------------------------------------------

---------------------------------------------------
---------------------------------------------------
---------------------------------------------------
------6-5--6-5--6-5--6-5/3--6-5--6-5--6-5--6-5/3---
---------------------------------------------------
---------------------------------------------------

---------------------------------------------------
---------------------------------------------------
---------------------------------------------------
------6-5--6-5--6-5--6-5/3--6-5--6-5--6-5--6-5-(3)-
---------------------------------------------------
---------------------------------------------------
_____________________________________________________________________________
(VERSO) ---------------------------------------------------
----------6-----------------------------6----------
-------5-----------------------------5-------------
---------------------------------------------------
---------------------------------------------------
---------------------------------------------------
_____________________________________________________________________________
(CORITO) ---------------------------------------------------
---------------------------------------------------
----------------3--3--------------------6--6----------- 4x
--3--3-3------3--3-----6--6-6-------6--6-----------
--3--3-3------1--1-----6--6-6-------4--4-----------
--1--1-1-----------------4--4-4----------------------
____________________________________________________________________________
(Y ASI TERMINA)

----------------
----------------
----------------
--3-------------
--3-------------
--1-------------
Y BUENO PARA QUE QUEDE UN POQUITITO MAS COMPLETO LES TRAIGO LA LETRA

Load up on guns, bring your friends
It's fun to lose, and to pretend
She's over bored, and self assured
I know I know, A dirty word

hello, hello, hello, hello. . .hello, hello, hello, hello,
hello, hello, hello, hello. . .hello, hello, hello, hello

With the lights out it's less dangerous
Here we are now, entertain us
I feel stupid and contagious
Here we are now, entertain us.
A mulatto, an albino, a mosquito, my libido, Yea!

I'm worse at what I do best,
and for this gift I feel blessed.
I met a group that's always been
And always will until the end.

And I forget, just why i taste
Oh yes I guess it makes me smile
I found it hard. . .Its hard to find
Oh well, whatever, nevermind

Y
0
3
0
0
3Comments
-Patitas-

Enrealidad el solo no es haci pero es lo que consegui

0
-Patitas-

Gracias ๐Ÿ˜

0
neoclasical

Mira... la verdad que ya se tocar bien la viola, pero dio la casualidad de que estaba escuchando ese tema cuando vi tu post asique... ๐Ÿค˜

0