About Taringa!

Popular channels

Sumo - Estallando desde el océano

SUMO - Estallando desde el océano


link: http://www.videos-star.com/watch.php?video=TOAc1DuSFvw

LETRA Y TABLATURA PARA LA GUITARRA
C/RIFF

She had my head on the planet
with a sweet and sour sauce,
she was riding in the car
I was riding on my horse,
neck a neck along the road,
well I had nothing to hide
so what the heck.

Five fast cars woman rushing past,
the road was long and the thirst was fast,
gradually I fell behind
It was the blind
leading the blind.


BM4 GMaj7 Bm4/E Bm4
Over the hills, over the praires
Gmaj7 Bm4/E
down in the Pampa, up in the tundra
Bm4 Gmaj7
And in paris in spring and in old Pekin,
Bm/E Bm
and in Katmandu and in Xanadu
I'm bursting out of the ocean
Bm/E A
I'm bursting out of the ooh- ocean


Uh-uh, it was another gas station
uh-uh, it was another you.
Uh-uh, it was another gas station,
uh-uh, it was another you.
And that's true, oh baby that's true
And that's true, oh baby that's true

And give me this, and give me that,
I've got no need for your sad unattached.
And give me this and give me that.
I've got no need for your berberry berberry hat
It's just my horse and me,
it's just my horse and me,
it's just my horse and me.


RIFF:

1 :--3--------3--0------------------------------
2 :-----3-----------0-----3--0-----3--2--0------
3 :--------0-----------0--------3-----0--0--2-0-
4 :----------------------------------------------
5 :--0------------------------------------------
6 :---------------------------------------------


BAJO


Versos

G------------------12-11-------
D----------14---12-------14h12-
A-12-12-12---------------------
E------------------------------

Estribillo

B G E
G---------------------------------------------
D---------------------------------------------
A-2-2-2-2-2-2-2-2-------------7-7-7-7-7-7-7-7-
E----------------3-3-3-3-3-3-3----------------

despues cambia

B G E
G--4-4-4-4------------------------
D----------5-5-5-5----------------
A-2-2-2-2---------7-7-7-7-7-7-7-7-
E---------3-3-3-3-----------------



FUENTE: http://www.10acordes.com.ar/letra-de-estallando-desde-el-oceano-sumo-11749



0No comments yet