epelpad

tablaturas de heavy metal para guitarra faciles y dificiles

Hola les traigo algunas tablaturas de heavy para la guitarra espero que les guste



AC/DC



Highway to hell intro

e|----------------------------------------------------------------------------------------------||
B|--------2--2--2--------3--3--3--------3--3--3--------3--3--3--------3--------2--2--||
G|--------2--2--2--------2--2--0--------2--2--0--------2--2--0--------0--------2--2--||
D|--------2--2--2--------0--0--0--------0--0--0--------0--0--0--------0--------2--2--||
A|--------0--0--0--------x--x--x---------x--x--x---------x--x--x--------x--------0--0--||
E|-------------------------2--2--3---------2--2--3--------2--2--3--------3---------------||


Back in black intro

e|-----------------------------------------------------3/0-----------------||
B|------------------3--3--3---------------------------------3/0----------||
G|------------------2--2--2--------2--2--2----------------------2´/0--||
D|--------2--------0--0--0--------2--2--2-------------------------------||
A|--------2-------------------------0--0--0-------------------------------||
E|--------0------------------------------------------------------------------||


e|--------------------------------------------------------------------------------------||
B|------------------3--3--3-----------------------------------------------------------||
G|------------------2--2--2--------2--2--2------------------------------------------||
D|--------2--------0--0--0--------2--2--2------------------------------------------||
A|--------2-------------------------0--0--0---------2-----2-----2-----2-----------||
E|--------0-----------------------------------------------4-----5-----6-----7/0----||

(´)BEND subir la cuerda

Shoot to thrill intro

e|-----------------------------------||
B|-----------------------------------||
G|---------------------2------------||
D|---------2--2------2------------||
A|---------0--3--4--0------------||
E|----------------------------------||


Thunderstruck

e|-------------------------------------------------------------------------------------------||
B|0-4-0-7-0-4-0-7-0-4-0-7-0-4-0-7-0-4-0-7-0-4-0-7-0-4-0-7-0-4-0-7-0--||
G|-------------------------------------------------------------------------------------------||
D|-------------------------------------------------------------------------------------------||
A|-------------------------------------------------------------------------------------------||
E|-------------------------------------------------------------------------------------------||

e|-------------------------------------------------------------------------------------------||
B|0-5-0-8-0-5-0-8-0-5-0-8-0-5-0-8-0-5-0-8-0-5-0-8-0-5-0-8-0-5-0-8-0--||
G|-------------------------------------------------------------------------------------------||
D|-------------------------------------------------------------------------------------------||
A|-------------------------------------------------------------------------------------------||
E|-------------------------------------------------------------------------------------------||


e|-------------------------------------------------------|-------------------------------------------------------||
B|-0-12-0-10-0-9-0-10-0-9-0-7-0-9-0-7-0---|-0-12-0-10-0-9-0-10-0-9-0-7-0-9-0-7-0----||
G|-------------------------------------------------------|-------------------------------------------------------||
D|-------------------------------------------------------|-------------------------------------------------------||
A|-------------------------------------------------------|-------------------------------------------------------||
E|-------------------------------------------------------|-------------------------------------------------------||

e|-----------------------------------------------------------|-------------------------------||
B|-0-12-0-10-0-9-0-10-0-9-0-7-0-9-0-7-0-5-0-|-4-0-5-0-4-0-2-0-4-0-2--||
G|-----------------------------------------------------------|-------------------------------||
D|-----------------------------------------------------------|-------------------------------||
A|-----------------------------------------------------------|-------------------------------||
E|-----------------------------------------------------------|-------------------------------||


BLACK SABBATH



Iron man

e|---------------------------------------------------------------------------||
B|---------------------------------------------------------------------------||
G|---------------------------------------------------------------------------||
D|-4---7---7---9--9---12-11-12-11-12-11-12---7--7--9--9-----||
A|-2---5---5---7--7---10--9--10--9-10--9--10---5--5--7--7------||
E|-----------------------------------------------------------------------------||


Paranoid


e|---------------------------------------------------------------------------------------|
B|---------------------------------------------------------------------------------------|
G|--------------------------------------------7--9--------------------7-----------------------|
D|--7/9-----7/9-----7/9----------7--9--------------7--9---------------9------------------|
A|--7--------7--------7---------------------------------------------------------------|
E|--------------------------------------------------------------------------------------|

Esta parte es por quintas

|E (8 tiempos)| D (4 tiempos) |D G D(1 ves)|

|E(1 ves, 2 tiempos)|C(1 ves, 1 tiempo)|D(1 ves, 1 tiempo)|E(4 tiempos)|

|E(8 tiempos)|D(8 tiempos)|E(8 tiempos)|D(8 tiempos)|


Smoke on the water

e|-------------------------------------------------||
B|-------------------------------------------------||
G|-0-3-5---0-3-6-5---0-3-5---3-0----------||
D|-0-3-5---0-3-6-5---0-3-5---3-0----------||
A|-------------------------------------------------||
E|-------------------------------------------------||


sweet child o´ mine

e|--------------15----14---------|---------------15----14-------|
B|-----15-------------------------|-----15------------------------|
G|--------14-12----14----14----|--------14-12----14----14---|
D|--12----------------------------|--12---------------------------|
A|---------------------------------|--------------------------------|
E|---------------------------------|--------------------------------|

e|--------------15----14---------|---------------15----14---------|
B|-----15-------------------------|-----15--------------------------|
G|--------14-12----14----14----|--------14-12----14----14-----|
D|--14----------------------------|--14-----------------------------|
A|---------------------------------|----------------------------------|
E|---------------------------------|----------------------------------|

e|--------------15----14------------|----------------15----14------|
B|-----15----------------------------|-----15------------------------|
G|--12----14-12----14----14-----|-12-----14-12----14----14--|
D|-----------------------------------|---------------------------------|
A|-----------------------------------|---------------------------------|
E|-----------------------------------|---------------------------------|

e|--------------15----14---------|---------------15----14-------|
B|-----15-------------------------|-----15------------------------|
G|--------14-12----14----14----|--------14-12----14----14---|
D|--12----------------------------|--12---------------------------|
A|---------------------------------|--------------------------------|
E|---------------------------------|--------------------------------|


Welcome to the jungle

e|-------------------------------------------------||
B|-------------------------------------------------||
G|-----2--2----------2--------------------------||
D|-----2--2----------2--------------------------|| X 4
A|-----0--0----------0--------------------------||
E|-------------2--2------3--2--0---------------||


e|-------------------------------------------------------||
B|-------------------------------------------------------||
G|------9--9------7--7------9-----7--6--4----------||
D|------9--9------7--7------9-----7--6--4----------|| X 4
A|------7--7------5--5------7-----5--4--2----------||
E|-------------------------------------------------------||



METALLICA



Enter sandman

e|---------------------------------------------||
B|---------------------------------------------||
G|---------------------------------------------||
D|----------------5---------------------------|| X 12
A|-----------7------------------5------------||
E|------0-------------6--5-------------------||


One

e|------------------------------------------------------------------------------||
B|------------------------------------------------------------------------------||
G|--------------------------------------------------------------------------0--||
D|-----4-----0---------4-----0-------------4-----0--------4-----0---------||
A|-2-----2------------------------------2-----2------------------------------||
E|-------------------3-----3------------------------------3-----3------------||


e|-------------------------------------------------------------------------||
B|-------------------------------------------------------------------------||
G|-------------------------------------------------------------------------||
D|-----4------0-----------4-----0--------4-----0----------------------||
A|-2-----2------------0-----0--------------------------------2-----2--||
E|--------------------------------------3-----3-----------0-----2-------||


Nothing else matters

e|-------0-----|-------0-----|-------0-----|-------0---7-||
B|-----0---0---|-----0---0---|-----0---0---|-----0---0---||
G|---0-------0-|---0-------0-|---0-------0-|---0---------||
D|-------------|-------------|-------------|-------------||
A|-------------|-------------|-------------|-------------||
E|-0-----------|-0-----------|-0-----------|-0-----------||


e|-7-----------7^0---------|---------7---8---7^85---7-5-/0------||
B|---------0-------0-------|---------0---0-----------0-------5---||
G|-----0---------------0---|-----0-------------------------------||
D|-------------------------|-------------------------------------||
A|-------------------------|-------------------------------------||
E|-0-----------------------|-0-----------------------------------||


e|-------------2^0---------|-------------0---0---0---||
B|-5-------5-------5-------|---------5-------5---5---||
G|-----5---------------5---|-----5-----------5---5---||
D|-------------------------|-------------------------||
A|-0-----------------------|-0---------------0---2---||
E|-------------------------|-------------------------||


e|-0-----------3^0-----0---|-0----------0^5^0---------||
B|-5-------5-------5---5---|-7---7-5-7--------7^0-5^0-||
G|-5-----5---5-------5-5---|-7------------------------||
D|-------------------------|--------------------------||
A|-3---3---------------3---|-5------------------------||
E|-------------------------|--------------------------||

<.NH.>
e|-------12----|-------0-----|-------0-----|-------0-----||
B|-----12--0---|-----0---0---|-----0---0---|-----0---0---||
G|---12------0-|---0-------0-|---0-------0-|---0-------0-||
D|-------------|-------------|-------------|-------------||
A|-------------|-------------|-------------|-------------||
E|-0-----------|-0-----------|-0-----------|-0-----------||


e|-------------7---7-------|-------------|-------------7-----------||
B|-------------8---8-------|-----7-----5-|-------------8-----------||
G|-----------9-----9-------|-----7-----5-|-----------9-------------||
D|---------9---------------|---7-----5---|---------9---------------||
A|-------7-----------------|-5-----3-----|-------7-----------------||
E|-0-----------------------|-------------|-0-----------------------||


e|-------------|----------7-----7--------|-----5-----------3-------||
B|-----7-----5-|----------------8--------|-------7-----------5-----||
G|-----7-----5-|-------------9-----------|---------7-----------5---||
D|---7-----5---|-------------------------|-------------------------||
A|-5-----3-----|-------7-----------------|-5-----------3-----------||
E|-------------|-0-----------------------|-------------------------||


e|-----3-------------------|-------0-----(0------)|-------0-----||
B|-------3---------5-4-----|-----0---0---(-0-----)|-----0---0---||
G|---------4---------------|---0-------0-(--0----)|---0-------0-|
D|-------------------------|-------------(---2---)|-------------||
A|-------------2-----------|-------------(----2--)|-------------||
E|-3-----------------------|-0-----------(-----0-)|-0-----------||



Crazy train

A|------------4-------5--------4--------2----------------2-----------------------||
E|----2--2-------2-------2--------2---------5--4--5--------5--4--0-----------||


Breaking the law

A|---0--2--3---0--2--3---0--2--3-----------0----------0------3--2----||
E|-----------------------------------------1--3------1--3------3-----------||


The trooper

D|--------------------------------------------------------------------5------------||
A|----7--7--7--5-------5--5--5--3-------3--3--3--2------------5------5--7-----||
E|-------------------7------------------5-----------------3--------------------------||


Stairway to heaven

e|-----5--7----7--8----8--2---2-0-------0---------------|------------------
B|----5-----5-------5-------3-----1---1---1-------------|------------------
G|---5-------5--------5------2------2-------2---0--2-2--|------------------
D|--7-----6-------5-------4-----3--------------------2--|------------------
A|----------------------------------------------2--0-0--|0--3(A)8--7-------
E|------------------------------------------------------|------------------



tablaturas de heavy metal para guitarra faciles y dificiles

Comentarios Destacados

28 comentarios - tablaturas de heavy metal para guitarra faciles y dificiles

nanocapo64 -17
Este post no tiene comentarios, Soyez le premier!
Cheto1999 -13
Este post tiene un comentario, Soyez el segunder
22gena +1
son buenas canciones
Rhapsodiafinal +3
Geniales canciones, pero estaría genial que estuviesen completas, o al menos las más miticas como the trooper o nothing else metters
pabloss666 +1
Como que no da, existen paginas con con los tabs completos hasta con los solos, igual es una buena seleccion!!!
Proba con los guitar pro
intolivinghell
me llevo the trooper , paranoid y las de ac dc!!!! gracias loco gran trabajo. pasate por mi post que necesito puntos . es sobre videos de metal
Truthz -4
y esto para ti es heavy metal???? esto es del metal mas ligero que puede existir!!!!!
StratoGrunge +5
Truthz dijo:y esto para ti es heavy metal???? esto es del metal mas ligero que puede existir!!!!!

pelotudo, black sabbath es el creador del metal, y deep purple tambien fue uno de los pioneros, no hables sii no sabes
heavyaxel +1
Gracias Chabon!!! yo recien empiezo y me reee sirven!!!! lo reco!!!
Anthon222
Todas estan Buenas La de Guns N Roses lo Maximo
PanterA3198 -2
Posser del orto, escuchás Gays and Possers
SubZERO134 +1
me encanto tocar breaking the law, eres la ostia amigo! +10
miguel2398
sweet child of mine esta de pm!!!!!!! lml
carlos_rt
buenas canciones te dejo +10
JCian
exelente capo muy bien
guscholo
AC DC es rock pesado, no tiene nada que ver con el heavy MEtal