epelpad

Tablaturas para guitarra, muy faciles :)

espero que estas tablaturas les sirvan a los que les gustaria progresar con la guitarra, con estas tablaturas yo empece a tocar la guitarra :')
bueno aca se las dejo...


FELIZ CUMPLEAÑOS



versión aguda:
Mi-E ||------------1-0--------- 3-1--|----- 8-5-1-1-0----6-6-5-1-3-1---||
Si-B ||-1-1-3-1-------1-1-3-1------|-1-1--------------3------------------||
Sol-G||---------------------------------|---------------------------------------||
Re-D ||---------------------------------|---------------------------------------||
La-A ||---------------------------------|---------------------------------------||
Mi-E ||----------------------------------|---------------------------------------||

versión grave:

Mi- E ||-----------------------------------|------------------------------------------------||
Si- B ||------------------------------------|-----------------------------------------------||
Sol-G||------------------------------------|-------0--------------------------------------||
Re- D||-----------------------------0-----|-----------2------------3-3-2-----0--------||
La- A ||-------0----3-2--------0------3-|---------------3-3-2-0---------3-----3-----||
Mi- E ||-3-3-----3--------3-3---3-------|-3-3-----------------------------------------||

ESTRELLITA DONDE ESTAS



MI E ||--------------0-0---------------------------|------------------------------------------|
SI–B ||--------3-3--------3-1-1--0-0------------|-3-3-1-1-0-0------3-3-1-1-0-0------|
SOL-G||-0-0------------------------------2-2--0--|------------------2--------------------2-|
RE-D ||----------------------------------------------|------------------------------------------|
LA–A ||----------------------------------------------|------------------------------------------|
MI–E ||----------------------------------------------|------------------------------------------|

-------------0-0--------------------------||
-------3-3--------3-1-1--0-0-----------||
-0-0-----------------------------2-2--0-||
-------------------------------------------||
-------------------------------------------||
-------------------------------------------||

LA CUCARACHA



Mi – E||---------1-5----------1-5-|-1-1-0-0---------|-----------0-3-----------0-3-|-8-10-8-6-5-3-1--||
Si – B||-1-1-1-------1-1-1-------|------------3-3-1-|-1-1-1---------1-1-1--------|----------------------||
Sol- G||-----------------------------|--------------------|--------------------------------|---------------------||
Re – D||----------------------------|--------------------|--------------------------------|---------------------||
La – A||-----------------------------|--------------------|--------------------------------|---------------------||
Mi – E||-----------------------------|--------------------|--------------------------------|---------------------||

LOS SIMPSONS



Mi- E ||---------------------------|--------------|--------------|---------------||
Si- B ||--------------------------|---------------|--------------|---------------||
Sol-G ||-----------2-0----------|---------------|--------------|---------------||
Re– D ||----2-4--------2-0-----|---------------|--------------|---------------||
La– A ||-3--------------------3-|---------------|--------------|-1-1-1-1-3--||
Mi– E ||--------------------------|-2-2-2-2-3-|-2-2-2-2-3-|----------------||

EL CHAVO DEL 8



Mi- E ||----------------------0----------------------------|-----------------------0---------------------|
Si- B ||------------------------3-1-0--------------------|---------------------------3-1-0-------0-1-|
Sol-G||--0----------0------------------2-0-----------0-|-0-----------0--------------------2-0-------|
Re- D||-----2-2-2-----2-2------------------3-2-3-----|-----2-2-2-----2-2--------------------------|
La- A ||---------------------------------------------------|-----------------------------------------------|
Mi- E ||---------------------------------------------------|------------------------------------------------|

--------------------------------------0----0---|---------------------0----------------------||
-1------------1----1----3-0-3-0----1----1-|-------------------------3-1-0--------0-1-||
------2-2-2-----2---2------------------------|-0-----------0-------------------2-0------||
------------------------------------------------|------2-2-2---2-2-------------------------||
------------------------------------------------|---------------------------------------------||
------------------------------------------------|---------------------------------------------||

EL HIMNO DE LA ALEGRIA



Mi- E ||-0-0-1-3-3-1-0-------------0-0-------|-0-0-1-3-3-1-0-------------0----------|
Si- B ||--------------------3-1-1-3-------3-3-|---------------------3-1-1-3-----3-1-1-|
Sol-G||-------------------------------------------|-------------------------------------------|
Re- D||-------------------------------------------|-------------------------------------------|
La- A ||-------------------------------------------|-------------------------------------------|
Mi- E ||-------------------------------------------|-------------------------------------------|


-----0—----0-1-0--------0-1-0--------------|-0-0-1-3-3-1-0------------0---------||
-3-----1-3----------1-3-----------3-1-3-----|--------------------3-1-1-3----3-1-1-||
----------------------------------------------0--|-----------------------------------------||
--------------------------------------------------|-----------------------------------------||
--------------------------------------------------|-----------------------------------------||
--------------------------------------------------|-----------------------------------------||

EL PADRINO (THE GODFATHER)



Mi- E ||----0-3-2-0-3-0-2-0---------|----0-3-2-0-3-0-2-0---------|-------0-2----------0--|
Si- B ||-0----------------------1-3-0-|-0-------------------------------|----1----------1-4-----|
Sol-G||---------------------------------|--------------------------3-2-1-|-1---------2-----------|
Re- D||---------------------------------|----------------------------------|------------------------|
La- A ||---------------------------------|----------------------------------|------------------------|
Mi- E ||---------------------------------|----------------------------------|------------------------|


-----------------------------|-0-0--------2-0-------|-------------------------||
-----0-3-1-0-3-2-1-4-5-|-------4-3--------1-0-|-0-3-0-------1-----0--||
-0--------------------------|-------------------------|---------2-2-----2-----||
-----------------------------|-------------------------|-------------------------||
-----------------------------|-------------------------|-------------------------||
-----------------------------|-------------------------|-------------------------||

CANCIÓN DE CUNA




Mi- E ||-0-0-3-0-0-3-0-3-8-7-5-5-3--|----0-1-1-----0-1--|--------1-7-5-3-7-8-||
Si- B ||-----------------------------------|-3-----------3-------|---3-------------------||
Sol-G ||-----------------------------------|----------------------|-----------------------||
Re- D ||-----------------------------------|----------------------|-----------------------||
La- A ||-----------------------------------|----------------------|-----------------------||
Mi- E ||-----------------------------------|----------------------|------------------------||

PD: SI NO SABES LEER TABLATURAS AVISAME EN LOS COMENTARIOS Y HAGO UN POST EN EL CUAL TE LO EXPLICO
gracias por ver este post espero que te alla servido, este es mi primer post me ayudaria mucho si le dejas algunos puntos. se aceptan sugerencias de cualquier tipo, comenta si te gustaria que haga una segunda parte, y compartelo con tus amigos guitarristas si te ah gustado.

11 comentarios - Tablaturas para guitarra, muy faciles :)

Qw3rty -12
Intentá enseñar acordes, no tablaturas que no sirven.
FlorDemozzi +1
gracias por la sugerencia
perolptttm +4
WTF. ese comentario me lleno de verguenza ajena.
mariotorpe
puta
GABRIPS666 -16
son tabs muy noobs subi una de dragonforce y te sigo
jerauma
Muy bueno gracias.
HazioPhikal +4
Come as your one - Nirvana
Mi- E ||------------------|------------------|------------------------------------------
Si- B ||-----------------|-------------------|------------------------------------------
Sol-G ||-----------------|-------------------|-----------------------------------------
Re- D ||----------------|-------------------|------------------------------------------
La- A ||-----------------|-0-----0----------|-----2--------2-------------------------
Mi- E ||----0-0-1-2----|-----2-----2-2-1-|--0------0-0---------------------------
HazioPhikal +1
Satisfaction - The Rolling stones
Mi- E ||-----------|-----------|--------------------------------------------------------
Si- B ||-----------|------------|-------------------------------------------------------
Sol-G ||----------|-----------|--------------------------------------------------------
Re- D ||--2-2---|--2-4-5--|--5-5-4---2-2-----------------------------------------
La- A ||----------|-----------|---------------------------------------------------------
Mi- E ||-----------|----------|---------------------------------------------------------
xXskaterXx
Rush - What You're Doing

http://www.guitaretab.com/r/rush/16685.html
GABRIPS666
|----------------------------------|-6-----------------6h8p6-------------||
|--------------------------6-------|----8------------8-------8-------8---||
|-5---7---8----5---7---8-------7---|------8-5----5h8-----------8-5-8-----||
|---5---5----5---5---5---5---5---5-|----------5--------------------------||
|----------------------------------|-------------------------------------||
|----------------------------------|-------------------------------------||
michaelutcanebri +1
e|-------------------------------|------------------------
B|-1212--------------------------|------------------------
G|-----14-12----12--14b-12----12-|-----9----9----9----9---
D|-----------14------ -----14----|-9h12-9h12-9h12-9h12----
A|-------------------------------|-(repete várias vezes)--
E|-------------------------------|------------------------