epelpad

Aprende a Tocar Guitarra solo con 4 Videos + Yapa

Bueh ps... aqui les dejo 4 videos con los que ustedes pueden tocar su primera cancion en la guitarra...(Se los aseguro si se dedican)

Por lo menos a mi me sirvio muchisisisisisisimo, hace casi 2 dias que empeze con la guitarra y !WooooW!!! ya puedo tocar la cancion del video "Wonderwall" lo malo es que son solo 4 videos y no han subido mas


Si les gustaron los videos Sigan el post que apenas suban el 4to video lo posteo aqui






+Yapa Algunas canciones que puedes tocar despues de que hagas lo de los videos o antes pero te queda mas facil despues de que hagas lo de los videos

Las Tablaturas


La tablatura es una representación del brazo de la guitarra por medio de seis lineas dispuestas de manera horizontal representando las cuerdas de la guitarra.
A la izquierda, al principio de cada linea horizontal se colocan letras en cifrado americano que dicen las notas de cada cuerda. La cuerda mas aguda estara representada arriba de todo, es decir es la primera linea que se dibuja, en ocasiones la primera cuerda se dibuja con una "e" minúscula al lado.


e|-------------------------------------------------------------|
B|-------------------------------------------------------------|
G|-------------------------------------------------------------|
D|-------------------------------------------------------------|
A|-------------------------------------------------------------|
E|-------------------------------------------------------------|


Basicamente, la tablatura indica que nota se debe tocar en el lugar exacto (esta es la gran diferencia que existe con respecto a la partitura en donde uno debe deducir que digitación usar).Los numeros representaran el traste en el que esta ubicada la nota, en el caso de que diga 0 se tomará como una cuerda al aire.

Una tablatura puede verse mas o menos asi: -Las que les doy no son tan complicadas es un Ejemplo


E----5----7--------------------------3-----7------------------
B----5----8---------------0-1------1-1-----5--------8--7-5-7--
G----5----7-------------2-----2----------5--------------------
D----7----9----7-9----2---------------------------------------
A----7----10--------0-----------0-----------------------------
E----5----7-----------------------------------8-7-------------


Al principio puede resultar bastante complicado pero la tablatura requiere mucha menos dedicación que la partitura. Observa que cuando hay varios numeros uno encima de otro (como en el ejemplo) indicara que deben tocarse al mismo tiempo, representando un acorde. El TAB debe leerse al igual que cualquier texto, de izquierda a derecha.


El Feliz Cumpleaños

e----------1-0---------3-1-----8-5-1-1--0---6-6-5-1-3--1-
B-1-1-3--1-----1-1-3-1-----1-1------------3--------------

Inspector Gadget (muy divertido tocarla xD)


link: http://www.youtube.com/watch?v=qmNa7d_8V5k

1|-----------------------------------------------
2|---------------------------------------3-2---
3|----------------------------------4-3--------
4|------0-2-4--0-3---2-0------0-2-4------
5|--2-4------------4-----2-4-----------------
6|-----------------------------------------------


Flaca de Andres Calamaro (intro)


link: http://www.youtube.com/watch?v=Qn9i1Nl2a5s

e---------------------------------------------------------------------------------------
B--3-----------4------------5-----------3-1---3-----------4------------------------
G---4-2-0-2-4----4-2-0-2-4----4-2-0-2-4-----4---4-2-0-2-4---4-2-0-----
D---------------------------------------------------------------------------------------
A---------------------------------------------------------------------------------------
E--------------------------------------------------------------------------------------


Iron Man de Black Sabbath


link: http://www.youtube.com/watch?v=MII3ns2KTBc

G----------------------------------------------
D----------------------------------------------
A-2-5--5-7-7--109-109-109-5-5-7-7-
E--------------------------------- -------------(x7)


G----------------------------------------------
D----------------------------------------------
A-----5----------------------------------------
E-7-7---7-7-6-555-04567----------- (x3)


G----------------------------------------------
D----------------------------------------------
A-2-5--5-7-7--109-109-109-5-5-7-7-
E---------------------------------------------- (x4)


G----------------------------------------------------
D-------------------789------------789----------
A-7---5-----567-789--------567-789--------
E--------77-------------77------------------- (x2)
[/align]


Bueh! esto es todo por hoy espero que hayan aprendido mucho jajaja acuerdense "Sigan el post" por si suben el otro video ahi mismo lo posteo y uds se dan cuenta

Chau!!

6 comentarios - Aprende a Tocar Guitarra solo con 4 Videos + Yapa

JapS -1
chau!
Anaenearab
qe canciones puedo practicar, que no incluyan el acorde Fa xq se me hace muy dificil jaja
genio_mega
se tocar pero me gusta como enseñas los que no sepan seguro con vos aprenden rapido
Francopaleo +3
Peter_Griffin sos un FORRO ojalá tuvieras ese síndrome!! Y el post esta bueno...
MJSVROCK
En su página de facebook está la continuación de sus vídeos www.facebook.com/fernando.lavado si se dan cuenta la 3a. parte no funka, ahi la encuentran