epelpad

El post que buscas se encuentra eliminado, pero este también te puede interesar

Guitarra | Conoce a Jason Becker

Guitarra | Conoce a Jason Becker

musicaguitarrainformacionjasonbeckertodoguitarristaPocofamosomusicorockvideosimagenesdeconocerunaConoce|Guitarra | Conoce a Jason Beckermusicaguitarrainformacion





¡Introduccion!


Que tal muchachos; con este Lick del Maestro Jason Becker, podrán practicar sus "triángulos", aparte de divertirse un rato con su particular sonido ...

jason

No sabes quien carajo es Jason Becker? TOMA!

becker

todo

Jason Becker es un guitarrista estadounidense, considerado por muchos críticos como uno de los más virtuosos en su género. Nacido el 22 de julio de 1969, en la ciudad de Richmond en California, Estados Unidos. Comenzó a tocar la guitarra desde muy joven, debido a que su padre y su tío eran guitarristas. Tocaba temas de Bob Dylan, Eric Clapton, Jeff Beck, Brian May de Queen, Jimi Hendrix, Eddie Van Halen e Yngwie Malmsteen etc, además como el mismo afirma en su video "The legendary guitar of Jason Becker", aprendió a tocar de oído y de forma autodidacta, ya que traspasó ampliamente las influencias de su tío y su padre: "escuchaba canciones de Yngwie Malmsteen en sus conciertos o una obra de Stravinski y luego tocaba esas mismas canciones de oído en mi guitarra, los fallos que cometía al tocarlas de oído hicieron que desarrollase mis propias frases". A los 16 años conoce a Marty Friedman, guitarrista que ya había editado un par de discos.




¡El Ejercicio!


Conoce

E||---------------12-15--12-------------12-15--12---15--12-13~-15-13~-12----------|
B||-------------13--------------------13----------------------------------15--12--|
G||*----------12--------------------12--------------------------------------------|
D||*--------14--------------------14----------------------------------------------|
A||-------15--------------------15------------------------------------------------|
E||---8/12------------------8/12--------------------------------------------------|


E||---------------12-15--12-------------12-15--12---15--12-13~-15-13~-12------15~-|
B||-------------13--------------------13----------------------------------13------|
G||*----------12--------------------12--------------------------------------------|
D||*--------14--------------------14----------------------------------------------|
A||-------15--------------------15------------------------------------------------|
E||---8/12------------------8/12--------------------------------------------------|


E||-15--16--17--16--17---13---13--14--15--14--15---12---13--15--13--12----------15|
B||---------------------------------------------------------------------13--------|
G||*------------------------------------------------------------------------12----|
D||*------------------------------------------------------------------------------|
A||-------------------------------------------------------------------------------|
E||-------------------------------------------------------------------------------|


E||----------12-15--12/10--------------------------12-15--12-------------12-15--12|
B||--------13------------12----------------------13--------------------13---------|
G||*-----12----------------12-------4~~~-------12--------------------12-----------|
D||*---14--------------------12-9/5----------14--------------------14-------------|
A||--15------------------------------------15--------------------15---------------|
E||------------------------------------8/12------------------8/12-----------------|


E||-15--15-17---17-17---19---19--------20~~---------------------------------------|
B||------------------------------------20-----------------------------------------|
G||*-----------------------------------17-----------------------------------------|
D||*-----------------------------------17-----------------------------------------|
A||-------------------------------------------------------------------------------|
E||-------------------------------------------------------------------------------|


|

drumaso dijo:
Un vicio muy común cuando se empieza a tocar la guitarra, es querer correr mucho enseguida, debemos pensar que la velocidad siempre viene después de la precisión.


9 comentarios - Guitarra | Conoce a Jason Becker

Rodrig0mbia
drumaso dijo:salio medio puto en la foto, pero bhue se salva xq es guitarrista






tenia algunos mp3 de este tipo cuando iba al cyber hace como 10 años atras para bajar musica.
gran interprete, muy buena tecnica
gracias por recordarmelo
nicolars
este chabon no quedo cuadriplegico o algo asi?
yo tengo speed metal symphony de cacopony,se sarpa....
sergiodan21
a favoritos pero solo para ver los otros post de guitarras
pazitos10
buen post! hace otro de marty friedman
relojblando +1
Que duo que hacian con Marty Friedman
tono_taringuero -3
E||---------------12-15--12-------------12-15--12---15--12-13~-15-13~-12----------|
B||-------------13--------------------13----------------------------------15--12--|
G||*----------12--------------------12--------------------------------------------|
D||*--------14--------------------14----------------------------------------------|
A||-------15--------------------15------------------------------------------------|
E||---8/12------------------8/12--------------------------------------------------|


E||---------------12-15--12-------------12-15--12---15--12-13~-15-13~-12------15~-|
B||-------------13--------------------13----------------------------------13------|
G||*----------12--------------------12--------------------------------------------|
D||*--------14--------------------14----------------------------------------------|
A||-------15--------------------15------------------------------------------------|
E||---8/12------------------8/12--------------------------------------------------|


E||-15--16--17--16--17---13---13--14--15--14--15---12---13--15--13--12----------15|
B||---------------------------------------------------------------------13--------|
G||*------------------------------------------------------------------------12----|
D||*------------------------------------------------------------------------------|
A||-------------------------------------------------------------------------------|
E||-------------------------------------------------------------------------------|


E||----------12-15--12/10--------------------------12-15--12-------------12-15--12|
B||--------13------------12----------------------13--------------------13---------|
G||*-----12----------------12-------4~~~-------12--------------------12-----------|
D||*---14--------------------12-9/5----------14--------------------14-------------|
A||--15------------------------------------15--------------------15---------------|
E||------------------------------------8/12------------------8/12-----------------|


E||-15--15-17---17-17---19---19--------20~~---------------------------------------|
B||------------------------------------20-----------------------------------------|
G||*-----------------------------------17-----------------------------------------|
D||*-----------------------------------17-----------------------------------------|
A||-------------------------------------------------------------------------------|
E||-------------------------------------------------------------------------------|


y esto como se leee?
gato1353 +1
el mas grande de todos los tiempos, no puedo creer que haya gente que no lo conozca