epelpad

El post que buscas se encuentra eliminado, pero este también te puede interesar

metodos de tocar la guitarra

bueno vamos a aprender cmo tocar la guitarra de diferentes maneras

una de ellas es tocar con la pua yo no la recomedaria para tocar acordes pero es muy buena para tocar rapido

la pua para tocar rapido se emplea de la siguiente manera:

con una pua blanda se toca la cuerda con la pua hacia arriba y hacia abajo en la misma cuerda my rapido un ejemplo seria el de la cancion tundherstruck de acdc

luego tenemos la tecnica del tapping q se us de la siguiente manera

presionamos una cuerda con fuerza con un dedo para q comienze a sonar y luego empezamos a jugr con los dedos esto sirve mucho para los solos
en las canciones de van halen se aprecia mucho esta tecnica

bueno la mas conocida y creo q la mas buena y facil para tocar ( yo pienso esto porq voy a un conservatorio y siempre me ensenian a tocar arpegios pero no critico las otras tecnicas )es el arpegio debido a q podemos tocar o tonos muy metaleros hasta musica clasica

el arpegio se emplea utilizando todos los dedos en un acorde por ejemplo
do
1---------------------------------------------------------------------------------
2-----1-----------------------------1---()---1-----------------------------------------
3-----0----------------------0-------------------0-----------------------------------
4-----2----------------2-------------------------------2-----------------------------
5-----3---------3--------------------------------------------3-----------------------
6---------------------------------------------------------------------------------

la 5 cuerda se toca con el indice y bajando con todos los dedos hasta en la segunda tocando con el menique

otra manera es agregar los graves q se utiliza en la musica clasica cuando no habia bajos ( se utilizaba el contrabajo para tocar tonos cmo el del bajo pero prcticamente junto con la guitarra no se esuchaba entonces se agregaron graves )

ejemplo greensleeves usa mucho los bajos les dejo la primera parte

1------------------------------0----------2----0-------------------------------------
2-------------1-------3-------------------------------3----------0--------------------
3------2------------------------------------------------------------------0---------
4---------------------------------------------------------------------------------
5-------------0-----------------------------------------------------------2---------
6------------------------------3-----------------------3----------------------------

pero hay canciones mas dificiles por ejemplo la de zorba el griego pero desp les subo una partitura q no es del guitar pro q la tengo yo y tambn la de nothing else matters de metallica

luego tambn tenemos los armonicos artificiales

no tengo fotos pero ya subire alguna

se emplean tomando la pua con los dos dedos (indice y pulgar) bien en la punta de la pua casi no se tiene q ver y luego tocar la cuerda q se desee tocando primero con la pua y luego darle por detras con el dedo pulgar

bueno ya me acordare otros metodos de guitarra q me enseñaron en el conservatorio y los subire aqui mientras espero q les sirva este poquito salu2

18 comentarios - metodos de tocar la guitarra

sebas_v
maticeco dijo:por favor denme algunos puntos hace bastante q estaba buscando estos metodos para subirlos a t!

amigo te doy un consejo.... no los pidas. xq hay muchos q te re cagan a puteadas. y vas a ganarte algunos rivales.... esta bueno tu post. me gusto!!!!
Deferico13
a genial me sirvio, a practiar se a dicho, soy novato asi q te dejo 10 caritas !!!

palbacete +1
Esta bien.. pero solo una aclaración, la de thunderstruck no es alternando la púa sino con pull-offs. Un saludo!
ironrizs +1
soy novato amigo pero me gusto tu post directo a favoritos
halach
lo bueno que estudiaste en el conservatorio, me imagino que un conservatorio de frutas y verduras por que de música no creo jaja no pongas eso, de verdad apenas a los maestros de una escuela de música.
Nota, yo si estudié un poco de música y dudo que eso que publicas sea digno, pero bueno ojala le sirva a alguien, saludos.
Fabmettal
greensleeves están mal los bajos. los primeros acordes son Lam, Do, Sol, Lam, Mi
Fabmettal
1------------------------------0----------2----0---------------------------------
2-------------1-------3-------------------------------3----------0--------------
3------2------------------------------------------------------------------0------
4---------------------------------------------------------------------------------
5-------------0---------------3--------------------------------------------------
6------------------------------------------------------3------------------0------
Lam C G Em
maticeco
estan bien, si queres te paso la partitura...
Sirpapa +1
fabmettal en greensleeves el fa de 1era cuerda no es sostenido, es natural
iori_666
amigo(te digo de guitarrista a guitarrista)

aprendancen canciones mas modernas, ya fue led zepelin acdc y todo eso

asi nunca le dan espacios a los nuevos y no podemos vivir viendo vejestorios en el esenario
maticeco
mas vale ... podrian estar tocando temas de la renga, los piojos, o algo mas nuevo, cual es el problema....ej, el cuarteto de nos o la vela puerca tocan con acordes complejos... por ej , el sib sostenido aumentado

que son acordes raros, el sostenido aumentado tiene un sonido misterioso, que no se usa en el rock, pero si en la musica clasica y opera...los modelos que siempre segui yo son led zeppelin o acdc y nunca me fue mal
Fabmettal
@Sirpapa, jaja verdad, pasé a escribir '2' (F#) en vez de '1' (F)...