epelpad

punteos para guitarra criolla

hola amigos taringueros..!! hoy les traigo un post con algunos punteos/tabs muy conocidos ..espero que les guste..


mario bross

ESTE TAB SE TOCA RAPIDO Y MOVIENDO LAS CUERDAS DE ARRIBA HACIA ABAJO


------------------------------------------------------|
------------------------------------------------------|
------------------------------------------------------|
------------------------------3-3-0-0-1-1--3-3-0-0-1-1|
--3-3-0-0-1-1--3-3-0-0-1-1----------------------------|


la pantera rosa

e-3-0-0-0--3-0-0----12-10-8-7-5-3-1-0-1-3-(3)-------------------------
b---------------------------------------------------------------------
g---------------------------------------------------------------------
D---------------------------------------------------------------------
A---------------------------------------------------------------------
E---------------------------------------------------------------------

e-3-0-0-0--3-0-0----12-10-8-7-5-3--4-5-(5)-----------------------------
b----------------------------------------------------------------------
g----------------------------------------------------------------------
D----------------------------------------------------------------------
A----------------------------------------------------------------------
E----------------------------------------------------------------------

e-7-5-5-5--10-7-7-7--10-7-10-7--12-8-8-8-------------------------------
b----------------------------------------------------------------------
g----------------------------------------------------------------------
D----------------------------------------------------------------------
A----------------------------------------------------------------------
E----------------------------------------------------------------------

e-3-0-0-0--3-0-0--12-10-8-7-5-3----------------------------------------
b----------------------------------------------------------------------
g----------------------------------------------------------------------
D----------------------------------------------------------------------
A----------------------------------------------------------------------
E----------------------------------------------------------------------


el chavo del 8

e-3-0-0-0--3-0-0----12-10-8-7-5-3-1-0-1-3-(3)-------------------------
b---------------------------------------------------------------------
g---------------------------------------------------------------------
D---------------------------------------------------------------------
A---------------------------------------------------------------------
E---------------------------------------------------------------------

e-3-0-0-0--3-0-0----12-10-8-7-5-3--4-5-(5)-----------------------------
b----------------------------------------------------------------------
g----------------------------------------------------------------------
D----------------------------------------------------------------------
A----------------------------------------------------------------------
E----------------------------------------------------------------------

e-7-5-5-5--10-7-7-7--10-7-10-7--12-8-8-8-------------------------------
b----------------------------------------------------------------------
g----------------------------------------------------------------------
D----------------------------------------------------------------------
A----------------------------------------------------------------------
E----------------------------------------------------------------------

e-3-0-0-0--3-0-0--12-10-8-7-5-3----------------------------------------
b----------------------------------------------------------------------
g----------------------------------------------------------------------
D----------------------------------------------------------------------
A----------------------------------------------------------------------
E----------------------------------------------------------------------


y por ultimo el padrino..

e----0-3--I-2-0-3-0-2-0-------I---------------0-3--------
B--0------I-------------1-3---I--0----------0------------
G---------I-------------------I--------------------------
D---------I-------------------I--------------------------
A---------I-------------------I--------------------------
E---------I-------------------I--------------------------



e--2-0-3-0-2-0-------I----------------0--I--2------------4----
B--------------0-----I--------------1----I-------------1------
G----------------3---I--2---------2------I-----------2--------
D--------------------I-------------------I--------------------
A--------------------I-------------------I--------------------
E--------------------I-------------------I--------------------




e--0-----------------I--------------------I---------------0-3-
B--------------0-3---I--1-0-3-2-1-0-------I-------------0-----
G------------0-------I--------------0-----I-------------------
D--------------------I----------------4---I--2----------------
A--------------------I--------------------I-------------------
E--------------------I--------------------I-------------------


e-----------0-0----I-------------2-0---I-----------------------
B---------------4--I--3--------------1-I--0---------0-3-0------
G------------------I-------------------I-----------------------
D--2---------------I-------------------I-----------------------
A------------------I-------------------I-----------------------
E------------------I-------------------I----------------------


e---------------------I--------------0-3---I
B--------------1------I--0---------0-------I
G--2---------2---2----I--------------------I
D---------------------I--------------------I
A---------------------I--------------------I
E---------------------I--------------------I

gracias por entrar...no se olviden de comentar y si les gusto dejen puntitos xfa para dejar de ser aprendiz..

4 comentarios - punteos para guitarra criolla

pulga1720 +2
¡Gracias! No tienes un post sobre como leer tab? u.u Soy muy NOOB con la guitarra xd
--bodoque--
e---------------------I--------------0-3---I 1ºcuerda
B--------------1------I--0---------0------I 2ºcuerda
G--2---------2---2----I-------------------I 3ºcuerda
D---------------------I--------------------I 4ºcuerda
A---------------------I--------------------I 5ºcuerda
E---------------------I--------------------I 6ºcuerda
cada linea representa las cuerdas, y los numeros el traste
captas?
pulga1720
@--bodoque-- Gracias men
--bodoque-- +1
@pulga1720 De nada! Me alegra que te haya servido.
enriqex +4
e---------------------I--------------0-3---I 1ºcuerda
B--------------1------I--0---------0------I 2ºcuerda
G--2---------2---2----I-------------------I 3ºcuerda
D---------------------I--------------------I 4ºcuerda
A---------------------I--------------------I 5ºcuerda
E---------------------I--------------------I 6ºcuerda
cada linea representa las cuerdas, y los numeros el traste
captas?
Te770
Alguna de damas gratis? Me gusto el post.
capaua
la pantara rosa y el chavo del 8 son las mismas tablaturas XD JEJE