epelpad

El post que buscas se encuentra eliminado, pero este también te puede interesar

Cómo leer tablaturas.

Cómo leer tablaturas.

La tablatura es una manera más rápida y sencilla, de leer música, por decirlo de alguna manera. No podremos leer en ella espacios, duración de notas o silencios como en una partitura, aunque si podremos ver en la tablatura la ubicación exacta de las notas a interpretar. Además la tablatura está orientada únicamente a la guitarra mientras que la música escrita en una partitura podremos interpretarla con otros instrumentos.
Una tablatura de las que encontrarás en este blog constará de las siguientes partes:

Seis líneas horizontales y paralelas encabezadas a su izquierda por un número: (Fig. 1).

1.-----------------
2.-----------------
3.-----------------
4.-----------------
5.-----------------
6.----------------- (Fig. 1).

En los que cada línea representa una cuerda de la guitarra empezando por la 1ª y acabando por la 6ª. (De ahí lo de 1, 2, 3, 4, 5 y 6). Os diré que llamamos sexta cuerda a la más gruesa y primera a la más fina. (Fig. 1).

También podréis encontrar, en vez de un número para identificar cada cuerda, la nota con la que cada nota sonaría al aire. (Fig. 2).

mi.-----------------
Si.-----------------
Sol.----------------
Re.-----------------
La.-----------------
Mi.----------------- (Fig. 2).

Que es en este caso la afinación estándar y que según la afinación que haya utilizado para tabscribir el tema, así cambiará, aunque yo, en este último caso, casi siempre suelo poner además de la afinación de cada cuerda, el número de cuerda. (Fig. 3).

mi 1.-----------------
Si 2.-----------------
Sol 3.----------------
Re 4.-----------------
La 5.-----------------
Mi 6.----------------- (Fig. 3).


Términos o símbolos que puedes encontrar sobre mis tablaturas:

(1:02) Guit. 1 estribillo “Voy a decir….
1.-----------------
2.-----------------
3.-----------------
4.-----------------
5.-----------------
6.----------------- (Fig. 4).


(1:02): Significa el momento de la canción donde comienza la tablatura minuto uno y dos segundos. (Fig. 4)
Guit 1.: Guitarra uno. Si en el tema suenan varias guitarras es posible que tabscriba ambas el numero 1 o 2 querrá decir que la tabscripcion pertenece a una de ellas. También puedo indicarlo poniendo guitarra solista o guitarra rítmica. (Fig. 4).
Estribillo: Parte de la canción tabscrita. (Fig. 4).
“Voy a decir…: Letra del tema. (Fig. 4).


Hasta ahora hemos visto una tablatura vacía, veamos ahora una con notación. (Fig. 5).

1.-----------------------------------------
2.----------------1--------------------1--
3.--------------2----------------------2--
4.----2-------2-----------------------2--
5.----0----0--------------------------0--
6.--0-------------------------------------(Fig. 5).


Cada nota representa el número de traste que deberemos tocar para conseguir la melodía tabscrita, así que, empezando siempre de izquierda a derecha.

1.----------
2.----------
3.----------
4.----------
5.----------
6.--0------- (Fig. 6)

Si vemos un 0 en la 6ª cuerda deberemos tocar dicha cuerda para que suene al aire y tocaremos la nota con la púa en la mano derecha (hablo de diestros evidentemente). (Fig. 6)

1.----------
2.----------
3.----------
4.------2---
5.------0---
6.---------- (Fig. 7)


Si nos encontramos un 0 en la quinta cuerda y a la misma altura un 2 en la cuarta deberemos tocar ambas al unísono, es decir, tocar la quinta cuerda pulsada al aire y la cuarta cuerda pulsada en el segundo traste a la vez con un golpe de púa. (Fig. 7). Normalmente esta notación indica el uso de quintas en este caso, o cuartas, terceras etc.

1.----------
2.----------
3.----------
4.----------
5.-------0--
6.---------- (Fig. 8).


Seguimos interpretando la tablatura y nos encontramos un 0 en la quinta cuerda, eso significa que la quinta cuerda debemos pulsarla al aire. (Fig. 8).

1.----------
2.----------
3.----------
4.------2---
5.----------
6.---------- (Fig. 9).


Después, un 2 en la cuarta cuerda significa que debemos tocar la cuarta cuerda pulsándola con la mano izquierda en el traste dos. (Fig. 9).

1.----------
2.----------
3.------2---
4.----------
5.----------
6.---------- (Fig. 10).


Seguidamente tocaremos la tercera cuerda en el segundo traste. (Fig. 10)

1.----------
2.-----1----
3.----------
4.----------
5.----------
6.---------- (Fig. 11).

La segunda cuerda en el primer traste. (Fig. 11).

1.-----0----
2.----------
3.----------
4.----------
5.----------
6.---------- (Fig. 12).

Y de nuevo la primera cuerda al aire. (Fig. 12).

1.--------0-
2.--------1-
3.--------2-
4.--------2-
5.--------0-
6.---------(Fig. 13).


Para terminar tocando las cinco cuerdas a la vez pulsando cada traste en cada cuerda, al aire la quinta cuerda, segundo en la cuarta cuerda, segundo nuevamente en la tercera cuerda, primer traste en la segunda cuerda y primera cuerda al aire todos ellos con un golpe de púa. Normalmente esta notación indica la posición de un acorde en este caso la menor. (Fig. 13).

Algunos símbolos que encontraras en la tablatura:

1.--------------------------------------------
2.--------------------------------------------
3.--------------------------------------------
4.---/7-----5(7)----5(7)(5)------------------
5.--------------------------------5h7h5h7-----
6.--------------------------------------------- (Fig. 14).


/ ó : Significa que haremos un barrido hasta la nota en cuestión de izquierda a derecha ó de derecha a izquierda, según nos indique la barra.(Fig. 14).
(): Las notas entre paréntesis indican bending o estiramientos. (Fig. 14).
h: Hammer o ligado. (Fig. 14).


www.malditastablaturas.blogspot.com
Acordes y tablaturas para guitarra.

0 comentarios - Cómo leer tablaturas.