epespad

pappo juntos a la par(acordes y letras)

Emm bueno aca les dejo una de mis canciones favoritas del carpo........
espero que les sirva



Juntos a la par:


Cadd9
Le he pedido tanto a dios
G
que al final oyo mi voz
Am Dsus2
por la noche a mas tardar
G cadd9 G
llendo juntos a la par



cartas de amor en el hall
se secan con el sol
lejos de la gran ciudad
ella es mi felicidad
nada como ir juntos a la par


nada como ir juntos a la par
y caminos desandar
el honor no lo perdi
es el heroe que hay en mi
nada como ir juntos a la par


Solo.
Cadd9 G
e[---------7--------------------------------------------------------------------
B[------8--8--10--8-8-8h10---------------------------------------------8---8s10-
G[--7h9-----------7-7---------7-7s9---7s9-7s9----------------------7h9----------
D[---------------------------------------------7-7s9----------7-9---------------
A[----------------------------------------------------3s7-10--------------------
E[------------------------------------------------------------------------------




Am D G
10-----------------------------------------------------------------------------]
---10----------8---10b12-10--8--10---------------------------------------------]
---------7-7h9---9--------------------------------7-9----7---------------------]
---------------------------------------------7-9------9----7-7h9--7------------]
--------------------------------------7--10--------------------------10--------]
-------------------------------------------------------------------------------]





se su nombre, se su edad
y sus gustos en la intimidad
cuando un corazon se entregra
y el mañana nunca llega
que mas puedo hacer


nada como ir juntos a la par
y caminos desandar
el honor no lo perdi
es el heroe que hay en mi
nada como ir juntos a la par

Am
el honor no lo perdi
Dsus2
es el heroe que hay en mi
F C G
nada como ir juntos a la par


acordes raros?:

Cadd9 Dsus2 (aveces tocado en sentido ascendente, en este tema)

e---3---- ----0----
B---3---- ----3----
G---0---- ----2----
D---2---- ----0----
A---3---- ----x----
E---x---- ----x----



emm bueno espero que les sirva........cualquier duda:[email protected]

4 comentarios - pappo juntos a la par(acordes y letras)

dermord
bien bien ,ponganle en lucida console tamaño 8 para que se vea bien la tab(fuente)
niiikin
Geeeniiiiiiiiiial
JULIEL79
y no das para bajarla?