epelpad

Para tocar Reggae, tablaturas y cifrados de Lumumba

Estos son las partituras con los acordes para guitarra de dos temazos de Lumumba... para mi la mejor banda de reggae del pais


La foto de Selassie I


organo:
D G
e-------------------------------------->
b--------7-7--------------------------->
g--------------------------4-4--------->
d-------------7-7---------------------->
a---5-5-------------------------5-5---->
e---------------------3-3-------------->

A G
>---------------------------------------
>---------------------------------------
>------6-6---------------4-4------------
>---------------------------------------
>-----------7-7---------------5-5-------
>--5-5--------------3-3-----------------

Acordes:
D:<057775>
G:<355433>
A:<577655>

(escucha mi gente escucha...)
D
las palabras que salen de mi
G
boca convocan
A
a una multitud
G
a empezarse a encontrarse
D
las palabras que digo
G
y no te obligo
A
a escucharlas ni son para
G
intimidarte
D
se que te gusta y lo que
G
hacemos y decimos no te
A
asusta porque estas
G
justa en el lugar y el
D
tiempo de darse
G
cuenta que esta a la
A
venta o rebajado
G
regalado has demostrado que eres
D G
buena
A G
bien bueeeeeena! (2x)

A G
con la foto de selassie I
A G
que tengo pegadita en la pared
A G
para maui marshall we play
A G
es la fuerza de rasta (2x)

muchos vinieron y nos dijeron
que la foto teniamos que quitar, pero
nuestros ancianos nos bendijeron
y ya nos dio la vision para actuar, si
el sufrimiento en este tiempo
nos hizo realizar
que lo que hace falta para entender
a Haile Selassie I

con la foto de selassie I
que tengo pegadita en la pared
para maui marshall we play
es la fuerza del rasta (2x)

las palabras que salen de mi boca convocan
a una multitud a empezarse a encontrarse
las palabras que digo y no te obligo
a escucharlas ni son para intimidarte
se que te gusta y lo que hacemos y decimos no te asusta
porque estas justa en el lugar y el tiempo
de darse cuenta que esta a la venta o rebajado
regalado has demostrado que eres buena bien bueeeeeena!

con la foto de selassie I
que tengo pegadita en la pared
para maui marshall we play
es la fuerza del rasta (4x)



Aca estamos

trompetas: (TP)

e------------------------------
b--5---------5~----------------
g-----7-5-7--------7~-----5-7--
d------------------------------
a------------------------------
e------------------------------

trompetas final: (TF)

e------------------------------5-5---5-5--
b--5---------5~---------------------------
g-----7-5-7--------7~-----5-7-------------
d-----------------------------------------
a-----------------------------------------
e-----------------------------------------

bajo:
se repite igual durante toda la rola.

Am
G----------------------
D---7--7-7------------- (2X)
A-----------7-----7----
E--------------5-------

G
G----------------------
D---5--5-5------------- (2X)
A-----------5-----5----
E--------------3-------


Toda la cancion se alternan estas notas:
G:<355433>
Am:<577555>


(TP)
YOoooo!
Justicia para el pobre
(TP)
no sirve que ahorres
Po-po-po-poM!

Am
Aca estamos y no nos vamos
G
no digas que tenemos que callarnos
Am
y esta vez vas a escuchar
G
a los que no podiamos hablar
Am
Tu justicia ciega no sirve para nada
G
sin amor no se puede crecer
Am
y los que esperamos ya nos cansamos
G
de lo mismo una, una y otra vez

Nosotros sabemos sufrir
nosotros supimos reir
nosotros vamos a hablar
nooooo no nos van a callar

Pau a rampa y a cabrada?
vamos a continuar por el camino
correcto rasta termina con
la corrupcion de Babylon
lamentos que oran y lloran en busca
de pan y justicia, hey!
solamente unos pocos pueden
sobreviviiiiir

Aca estamos y no nos vamos
no digas que tenemos que callarnos
y esta vez vas a escuchar
a los que no podiamos hablar
Tu justicia ciega no sirve para nada
sin amor no se puede crecer
y los que esperamos ya nos cansamos
de lo mismo una, una y otra vez

Nosotros sabemos sufrir
nosotros supimos reir
nosotros vamos a hablar
nooooo no nos van a callar

Aqui estamos
y no nos vamos
es el deber de todo ser
de seguir para adelante y no dejar de querer
nunca por adentro empezar a envejecer
desde temprano en la manhana hasta al anochecer
el alto de los altos me viene a proteger
y cuando estoy muy bajo me llena de poder
por eso sigo y sigo y nunca voy a ceder
YeeeeEEH!

Aca estamos y no nos vamos
no digas que tenemos que callarnos
y esta vez vas a escuchar
a los que no podiamos hablar
Tu justicia ciega no sirve para nada
sin amor no se puede crecer
y los que esperamos ya nos cansamos
de lo mismo una, una y otra vez
Nosotros sabemos sufrir
nosotros supimos reir
nosotros vamos a hablar
nooooo no nos van a callar (noo!)

(TP)
No aceptaremos mas esta brutalidad
los que vengan atras seran victimas
(TF)
y no queremos ver a nuestros hijos caer (nooo!)
no aceptaremos mas esta brutalidad, brutalidad...



Buena vibra y viva el reggae!
comenten y dejen puntos por favor!!

4 comentarios - Para tocar Reggae, tablaturas y cifrados de Lumumba

deepadan +1
Gracias, TABLATURAS Y CIFRADOS MAS NO PARTITURAS LOCO!!!
chumbilla +1
Re bien!!! gracias amigoo